  0
SECTION
  2
HEADER
  9
$MEASUREMENT
  70
  1
  9
$INSUNITS
  70
  4
  0
ENDSEC
  0
SECTION
  2
TABLES
  0
TABLE
  2
LTYPE
 70
     1
  0
LTYPE
  2
CONTINUOUS
 70
    64
  3
Ausgezogene Linie
 72
    65
 73
     0
 40
0.0
  0
ENDTAB
  0
TABLE
  2
LAYER
 70
     3
  0
LAYER
  2
Kontur
 70
    64
 62
     7
  6
CONTINUOUS
  0
LAYER
  2
Gravur
 70
    64
 62
     7
  6
CONTINUOUS
  0
LAYER
  2
Bezugspunkte
 70
    64
 62
     1
  6
CONTINUOUS
  0
ENDTAB
  0
TABLE
  2
STYLE
 70
     1
  0
STYLE
  2
TXT
 70
    64
 40
0.0
 41
1.0
 50
0.0
 71
     0
 42
3.500000
  3
TXT
  0
ENDTAB
  0
ENDSEC
  0
SECTION
  2
BLOCKS
  0
ENDSEC
  0
SECTION
  2
ENTITIES
  0
LINE
  8
Kontur
 62
   7
 39
0.100
  6
CONTINUOUS
 10
483.00000
 20
88.05000
 30
 0
 11
483.00000
 21
0.00000
  0
LINE
  8
Kontur
 62
   7
 39
0.100
  6
CONTINUOUS
 10
483.00000
 20
0.00000
 30
 0
 11
0.00000
 21
0.00000
  0
LINE
  8
Kontur
 62
   7
 39
0.100
  6
CONTINUOUS
 10
0.00000
 20
0.00000
 30
 0
 11
0.00000
 21
88.05000
  0
LINE
  8
Kontur
 62
   7
 39
0.100
  6
CONTINUOUS
 10
0.00000
 20
88.05000
 30
 0
 11
483.00000
 21
88.05000
  0
CIRCLE
  8
Kontur
 62
   7
 39
0.100
  6
CONTINUOUS
 10
70.00000
 20
30.00000
 30
 0
 40
3.50000
  0
CIRCLE
  8
Kontur
 62
   7
 39
0.100
  6
CONTINUOUS
 10
70.00000
 20
60.00000
 30
 0
 40
3.50000
  0
CIRCLE
  8
Kontur
 62
   7
 39
0.100
  6
CONTINUOUS
 10
90.00000
 20
30.00000
 30
 0
 40
3.50000
  0
CIRCLE
  8
Kontur
 62
   7
 39
0.100
  6
CONTINUOUS
 10
90.00000
 20
60.00000
 30
 0
 40
3.50000
  0
CIRCLE
  8
Kontur
 62
   7
 39
0.100
  6
CONTINUOUS
 10
110.00000
 20
30.00000
 30
 0
 40
3.50000
  0
CIRCLE
  8
Kontur
 62
   7
 39
0.100
  6
CONTINUOUS
 10
110.00000
 20
60.00000
 30
 0
 40
3.50000
  0
CIRCLE
  8
Kontur
 62
   7
 39
0.100
  6
CONTINUOUS
 10
130.00000
 20
30.00000
 30
 0
 40
3.50000
  0
CIRCLE
  8
Kontur
 62
   7
 39
0.100
  6
CONTINUOUS
 10
130.00000
 20
60.00000
 30
 0
 40
3.50000
  0
CIRCLE
  8
Kontur
 62
   7
 39
0.100
  6
CONTINUOUS
 10
240.00000
 20
30.00000
 30
 0
 40
3.50000
  0
CIRCLE
  8
Kontur
 62
   7
 39
0.100
  6
CONTINUOUS
 10
240.00000
 20
60.00000
 30
 0
 40
3.50000
  0
CIRCLE
  8
Kontur
 62
   7
 39
0.100
  6
CONTINUOUS
 10
270.00000
 20
30.00000
 30
 0
 40
3.50000
  0
CIRCLE
  8
Kontur
 62
   7
 39
0.100
  6
CONTINUOUS
 10
270.00000
 20
60.00000
 30
 0
 40
3.50000
  0
CIRCLE
  8
Kontur
 62
   7
 39
0.100
  6
CONTINUOUS
 10
415.00000
 20
45.00000
 30
 0
 40
3.50000
  0
CIRCLE
  8
Kontur
 62
   7
 39
0.100
  6
CONTINUOUS
 10
150.00000
 20
30.00000
 30
 0
 40
3.50000
  0
CIRCLE
  8
Kontur
 62
   7
 39
0.100
  6
CONTINUOUS
 10
150.00000
 20
60.00000
 30
 0
 40
3.50000
  0
CIRCLE
  8
Kontur
 62
   7
 39
0.100
  6
CONTINUOUS
 10
170.00000
 20
30.00000
 30
 0
 40
3.50000
  0
CIRCLE
  8
Kontur
 62
   7
 39
0.100
  6
CONTINUOUS
 10
170.00000
 20
60.00000
 30
 0
 40
3.50000
  0
CIRCLE
  8
Kontur
 62
   7
 39
0.100
  6
CONTINUOUS
 10
190.00000
 20
30.00000
 30
 0
 40
3.50000
  0
CIRCLE
  8
Kontur
 62
   7
 39
0.100
  6
CONTINUOUS
 10
190.00000
 20
60.00000
 30
 0
 40
3.50000
  0
CIRCLE
  8
Kontur
 62
   7
 39
0.100
  6
CONTINUOUS
 10
210.00000
 20
30.00000
 30
 0
 40
3.50000
  0
CIRCLE
  8
Kontur
 62
   7
 39
0.100
  6
CONTINUOUS
 10
210.00000
 20
60.00000
 30
 0
 40
3.50000
  0
CIRCLE
  8
Kontur
 62
   7
 39
0.100
  6
CONTINUOUS
 10
50.00000
 20
15.00000
 30
 0
 40
5.00000
  0
CIRCLE
  8
Kontur
 62
   7
 39
0.100
  6
CONTINUOUS
 10
45.00000
 20
50.00000
 30
 0
 40
0.50000
  0
CIRCLE
  8
Kontur
 62
   7
 39
0.100
  6
CONTINUOUS
 10
45.00000
 20
47.50000
 30
 0
 40
0.50000
  0
CIRCLE
  8
Kontur
 62
   7
 39
0.100
  6
CONTINUOUS
 10
45.00000
 20
45.00000
 30
 0
 40
0.50000
  0
CIRCLE
  8
Kontur
 62
   7
 39
0.100
  6
CONTINUOUS
 10
45.00000
 20
42.50000
 30
 0
 40
0.50000
  0
CIRCLE
  8
Kontur
 62
   7
 39
0.100
  6
CONTINUOUS
 10
45.00000
 20
40.00000
 30
 0
 40
0.50000
  0
CIRCLE
  8
Kontur
 62
   7
 39
0.100
  6
CONTINUOUS
 10
45.00000
 20
37.50000
 30
 0
 40
0.50000
  0
CIRCLE
  8
Kontur
 62
   7
 39
0.100
  6
CONTINUOUS
 10
300.00000
 20
60.00000
 30
 0
 40
3.00000
  0
CIRCLE
  8
Kontur
 62
   7
 39
0.100
  6
CONTINUOUS
 10
312.00000
 20
60.00000
 30
 0
 40
3.00000
  0
CIRCLE
  8
Kontur
 62
   7
 39
0.100
  6
CONTINUOUS
 10
324.00000
 20
60.00000
 30
 0
 40
3.00000
  0
CIRCLE
  8
Kontur
 62
   7
 39
0.100
  6
CONTINUOUS
 10
336.00000
 20
60.00000
 30
 0
 40
3.00000
  0
CIRCLE
  8
Kontur
 62
   7
 39
0.100
  6
CONTINUOUS
 10
348.00000
 20
60.00000
 30
 0
 40
3.00000
  0
CIRCLE
  8
Kontur
 62
   7
 39
0.100
  6
CONTINUOUS
 10
360.00000
 20
60.00000
 30
 0
 40
3.00000
  0
CIRCLE
  8
Kontur
 62
   7
 39
0.100
  6
CONTINUOUS
 10
372.00000
 20
60.00000
 30
 0
 40
3.00000
  0
CIRCLE
  8
Kontur
 62
   7
 39
0.100
  6
CONTINUOUS
 10
384.00000
 20
60.00000
 30
 0
 40
3.00000
  0
CIRCLE
  8
Kontur
 62
   7
 39
0.100
  6
CONTINUOUS
 10
300.00000
 20
30.00000
 30
 0
 40
3.00000
  0
CIRCLE
  8
Kontur
 62
   7
 39
0.100
  6
CONTINUOUS
 10
312.00000
 20
30.00000
 30
 0
 40
3.00000
  0
CIRCLE
  8
Kontur
 62
   7
 39
0.100
  6
CONTINUOUS
 10
324.00000
 20
30.00000
 30
 0
 40
3.00000
  0
CIRCLE
  8
Kontur
 62
   7
 39
0.100
  6
CONTINUOUS
 10
336.00000
 20
30.00000
 30
 0
 40
3.00000
  0
CIRCLE
  8
Kontur
 62
   7
 39
0.100
  6
CONTINUOUS
 10
348.00000
 20
30.00000
 30
 0
 40
3.00000
  0
CIRCLE
  8
Kontur
 62
   7
 39
0.100
  6
CONTINUOUS
 10
360.00000
 20
30.00000
 30
 0
 40
3.00000
  0
CIRCLE
  8
Kontur
 62
   7
 39
0.100
  6
CONTINUOUS
 10
372.00000
 20
30.00000
 30
 0
 40
3.00000
  0
CIRCLE
  8
Kontur
 62
   7
 39
0.100
  6
CONTINUOUS
 10
384.00000
 20
30.00000
 30
 0
 40
3.00000
  0
CIRCLE
  8
Kontur
 62
   7
 39
0.100
  6
CONTINUOUS
 10
45.00000
 20
52.50000
 30
 0
 40
0.50000
  0
LINE
  8
Bezugspunkte
 62
   1
 39
0.100
  6
CONTINUOUS
 10
-2.05000
 20
0.00000
 30
 0
 11
2.05000
 21
0.00000
  0
LINE
  8
Bezugspunkte
 62
   1
 39
0.100
  6
CONTINUOUS
 10
0.00000
 20
-2.05000
 30
 0
 11
0.00000
 21
2.05000
  0
LINE
  8
Bezugspunkte
 62
   1
 39
0.100
  6
CONTINUOUS
 10
67.95000
 20
30.00000
 30
 0
 11
72.05000
 21
30.00000
  0
LINE
  8
Bezugspunkte
 62
   1
 39
0.100
  6
CONTINUOUS
 10
70.00000
 20
27.95000
 30
 0
 11
70.00000
 21
32.05000
  0
LINE
  8
Bezugspunkte
 62
   1
 39
0.100
  6
CONTINUOUS
 10
67.95000
 20
60.00000
 30
 0
 11
72.05000
 21
60.00000
  0
LINE
  8
Bezugspunkte
 62
   1
 39
0.100
  6
CONTINUOUS
 10
70.00000
 20
57.95000
 30
 0
 11
70.00000
 21
62.05000
  0
LINE
  8
Bezugspunkte
 62
   1
 39
0.100
  6
CONTINUOUS
 10
87.95000
 20
30.00000
 30
 0
 11
92.05000
 21
30.00000
  0
LINE
  8
Bezugspunkte
 62
   1
 39
0.100
  6
CONTINUOUS
 10
90.00000
 20
27.95000
 30
 0
 11
90.00000
 21
32.05000
  0
LINE
  8
Bezugspunkte
 62
   1
 39
0.100
  6
CONTINUOUS
 10
87.95000
 20
60.00000
 30
 0
 11
92.05000
 21
60.00000
  0
LINE
  8
Bezugspunkte
 62
   1
 39
0.100
  6
CONTINUOUS
 10
90.00000
 20
57.95000
 30
 0
 11
90.00000
 21
62.05000
  0
LINE
  8
Bezugspunkte
 62
   1
 39
0.100
  6
CONTINUOUS
 10
107.95000
 20
30.00000
 30
 0
 11
112.05000
 21
30.00000
  0
LINE
  8
Bezugspunkte
 62
   1
 39
0.100
  6
CONTINUOUS
 10
110.00000
 20
27.95000
 30
 0
 11
110.00000
 21
32.05000
  0
LINE
  8
Bezugspunkte
 62
   1
 39
0.100
  6
CONTINUOUS
 10
107.95000
 20
60.00000
 30
 0
 11
112.05000
 21
60.00000
  0
LINE
  8
Bezugspunkte
 62
   1
 39
0.100
  6
CONTINUOUS
 10
110.00000
 20
57.95000
 30
 0
 11
110.00000
 21
62.05000
  0
LINE
  8
Bezugspunkte
 62
   1
 39
0.100
  6
CONTINUOUS
 10
127.95000
 20
30.00000
 30
 0
 11
132.05000
 21
30.00000
  0
LINE
  8
Bezugspunkte
 62
   1
 39
0.100
  6
CONTINUOUS
 10
130.00000
 20
27.95000
 30
 0
 11
130.00000
 21
32.05000
  0
LINE
  8
Bezugspunkte
 62
   1
 39
0.100
  6
CONTINUOUS
 10
127.95000
 20
60.00000
 30
 0
 11
132.05000
 21
60.00000
  0
LINE
  8
Bezugspunkte
 62
   1
 39
0.100
  6
CONTINUOUS
 10
130.00000
 20
57.95000
 30
 0
 11
130.00000
 21
62.05000
  0
LINE
  8
Bezugspunkte
 62
   1
 39
0.100
  6
CONTINUOUS
 10
237.95000
 20
30.00000
 30
 0
 11
242.05000
 21
30.00000
  0
LINE
  8
Bezugspunkte
 62
   1
 39
0.100
  6
CONTINUOUS
 10
240.00000
 20
27.95000
 30
 0
 11
240.00000
 21
32.05000
  0
LINE
  8
Bezugspunkte
 62
   1
 39
0.100
  6
CONTINUOUS
 10
237.95000
 20
60.00000
 30
 0
 11
242.05000
 21
60.00000
  0
LINE
  8
Bezugspunkte
 62
   1
 39
0.100
  6
CONTINUOUS
 10
240.00000
 20
57.95000
 30
 0
 11
240.00000
 21
62.05000
  0
LINE
  8
Bezugspunkte
 62
   1
 39
0.100
  6
CONTINUOUS
 10
267.95000
 20
30.00000
 30
 0
 11
272.05000
 21
30.00000
  0
LINE
  8
Bezugspunkte
 62
   1
 39
0.100
  6
CONTINUOUS
 10
270.00000
 20
27.95000
 30
 0
 11
270.00000
 21
32.05000
  0
LINE
  8
Bezugspunkte
 62
   1
 39
0.100
  6
CONTINUOUS
 10
267.95000
 20
60.00000
 30
 0
 11
272.05000
 21
60.00000
  0
LINE
  8
Bezugspunkte
 62
   1
 39
0.100
  6
CONTINUOUS
 10
270.00000
 20
57.95000
 30
 0
 11
270.00000
 21
62.05000
  0
LINE
  8
Bezugspunkte
 62
   1
 39
0.100
  6
CONTINUOUS
 10
412.95000
 20
45.00000
 30
 0
 11
417.05000
 21
45.00000
  0
LINE
  8
Bezugspunkte
 62
   1
 39
0.100
  6
CONTINUOUS
 10
415.00000
 20
42.95000
 30
 0
 11
415.00000
 21
47.05000
  0
LINE
  8
Bezugspunkte
 62
   1
 39
0.100
  6
CONTINUOUS
 10
147.95000
 20
30.00000
 30
 0
 11
152.05000
 21
30.00000
  0
LINE
  8
Bezugspunkte
 62
   1
 39
0.100
  6
CONTINUOUS
 10
150.00000
 20
27.95000
 30
 0
 11
150.00000
 21
32.05000
  0
LINE
  8
Bezugspunkte
 62
   1
 39
0.100
  6
CONTINUOUS
 10
147.95000
 20
60.00000
 30
 0
 11
152.05000
 21
60.00000
  0
LINE
  8
Bezugspunkte
 62
   1
 39
0.100
  6
CONTINUOUS
 10
150.00000
 20
57.95000
 30
 0
 11
150.00000
 21
62.05000
  0
LINE
  8
Bezugspunkte
 62
   1
 39
0.100
  6
CONTINUOUS
 10
167.95000
 20
30.00000
 30
 0
 11
172.05000
 21
30.00000
  0
LINE
  8
Bezugspunkte
 62
   1
 39
0.100
  6
CONTINUOUS
 10
170.00000
 20
27.95000
 30
 0
 11
170.00000
 21
32.05000
  0
LINE
  8
Bezugspunkte
 62
   1
 39
0.100
  6
CONTINUOUS
 10
167.95000
 20
60.00000
 30
 0
 11
172.05000
 21
60.00000
  0
LINE
  8
Bezugspunkte
 62
   1
 39
0.100
  6
CONTINUOUS
 10
170.00000
 20
57.95000
 30
 0
 11
170.00000
 21
62.05000
  0
LINE
  8
Bezugspunkte
 62
   1
 39
0.100
  6
CONTINUOUS
 10
187.95000
 20
30.00000
 30
 0
 11
192.05000
 21
30.00000
  0
LINE
  8
Bezugspunkte
 62
   1
 39
0.100
  6
CONTINUOUS
 10
190.00000
 20
27.95000
 30
 0
 11
190.00000
 21
32.05000
  0
LINE
  8
Bezugspunkte
 62
   1
 39
0.100
  6
CONTINUOUS
 10
187.95000
 20
60.00000
 30
 0
 11
192.05000
 21
60.00000
  0
LINE
  8
Bezugspunkte
 62
   1
 39
0.100
  6
CONTINUOUS
 10
190.00000
 20
57.95000
 30
 0
 11
190.00000
 21
62.05000
  0
LINE
  8
Bezugspunkte
 62
   1
 39
0.100
  6
CONTINUOUS
 10
207.95000
 20
30.00000
 30
 0
 11
212.05000
 21
30.00000
  0
LINE
  8
Bezugspunkte
 62
   1
 39
0.100
  6
CONTINUOUS
 10
210.00000
 20
27.95000
 30
 0
 11
210.00000
 21
32.05000
  0
LINE
  8
Bezugspunkte
 62
   1
 39
0.100
  6
CONTINUOUS
 10
207.95000
 20
60.00000
 30
 0
 11
212.05000
 21
60.00000
  0
LINE
  8
Bezugspunkte
 62
   1
 39
0.100
  6
CONTINUOUS
 10
210.00000
 20
57.95000
 30
 0
 11
210.00000
 21
62.05000
  0
LINE
  8
Bezugspunkte
 62
   1
 39
0.100
  6
CONTINUOUS
 10
47.95000
 20
15.00000
 30
 0
 11
52.05000
 21
15.00000
  0
LINE
  8
Bezugspunkte
 62
   1
 39
0.100
  6
CONTINUOUS
 10
50.00000
 20
12.95000
 30
 0
 11
50.00000
 21
17.05000
  0
LINE
  8
Bezugspunkte
 62
   1
 39
0.100
  6
CONTINUOUS
 10
42.95000
 20
50.00000
 30
 0
 11
47.05000
 21
50.00000
  0
LINE
  8
Bezugspunkte
 62
   1
 39
0.100
  6
CONTINUOUS
 10
45.00000
 20
47.95000
 30
 0
 11
45.00000
 21
52.05000
  0
LINE
  8
Bezugspunkte
 62
   1
 39
0.100
  6
CONTINUOUS
 10
42.95000
 20
47.50000
 30
 0
 11
47.05000
 21
47.50000
  0
LINE
  8
Bezugspunkte
 62
   1
 39
0.100
  6
CONTINUOUS
 10
45.00000
 20
45.45000
 30
 0
 11
45.00000
 21
49.55000
  0
LINE
  8
Bezugspunkte
 62
   1
 39
0.100
  6
CONTINUOUS
 10
42.95000
 20
45.00000
 30
 0
 11
47.05000
 21
45.00000
  0
LINE
  8
Bezugspunkte
 62
   1
 39
0.100
  6
CONTINUOUS
 10
45.00000
 20
42.95000
 30
 0
 11
45.00000
 21
47.05000
  0
LINE
  8
Bezugspunkte
 62
   1
 39
0.100
  6
CONTINUOUS
 10
42.95000
 20
42.50000
 30
 0
 11
47.05000
 21
42.50000
  0
LINE
  8
Bezugspunkte
 62
   1
 39
0.100
  6
CONTINUOUS
 10
45.00000
 20
40.45000
 30
 0
 11
45.00000
 21
44.55000
  0
LINE
  8
Bezugspunkte
 62
   1
 39
0.100
  6
CONTINUOUS
 10
42.95000
 20
40.00000
 30
 0
 11
47.05000
 21
40.00000
  0
LINE
  8
Bezugspunkte
 62
   1
 39
0.100
  6
CONTINUOUS
 10
45.00000
 20
37.95000
 30
 0
 11
45.00000
 21
42.05000
  0
LINE
  8
Bezugspunkte
 62
   1
 39
0.100
  6
CONTINUOUS
 10
42.95000
 20
37.50000
 30
 0
 11
47.05000
 21
37.50000
  0
LINE
  8
Bezugspunkte
 62
   1
 39
0.100
  6
CONTINUOUS
 10
45.00000
 20
35.45000
 30
 0
 11
45.00000
 21
39.55000
  0
LINE
  8
Bezugspunkte
 62
   1
 39
0.100
  6
CONTINUOUS
 10
297.95000
 20
60.00000
 30
 0
 11
302.05000
 21
60.00000
  0
LINE
  8
Bezugspunkte
 62
   1
 39
0.100
  6
CONTINUOUS
 10
300.00000
 20
57.95000
 30
 0
 11
300.00000
 21
62.05000
  0
LINE
  8
Bezugspunkte
 62
   1
 39
0.100
  6
CONTINUOUS
 10
309.95000
 20
60.00000
 30
 0
 11
314.05000
 21
60.00000
  0
LINE
  8
Bezugspunkte
 62
   1
 39
0.100
  6
CONTINUOUS
 10
312.00000
 20
57.95000
 30
 0
 11
312.00000
 21
62.05000
  0
LINE
  8
Bezugspunkte
 62
   1
 39
0.100
  6
CONTINUOUS
 10
321.95000
 20
60.00000
 30
 0
 11
326.05000
 21
60.00000
  0
LINE
  8
Bezugspunkte
 62
   1
 39
0.100
  6
CONTINUOUS
 10
324.00000
 20
57.95000
 30
 0
 11
324.00000
 21
62.05000
  0
LINE
  8
Bezugspunkte
 62
   1
 39
0.100
  6
CONTINUOUS
 10
333.95000
 20
60.00000
 30
 0
 11
338.05000
 21
60.00000
  0
LINE
  8
Bezugspunkte
 62
   1
 39
0.100
  6
CONTINUOUS
 10
336.00000
 20
57.95000
 30
 0
 11
336.00000
 21
62.05000
  0
LINE
  8
Bezugspunkte
 62
   1
 39
0.100
  6
CONTINUOUS
 10
345.95000
 20
60.00000
 30
 0
 11
350.05000
 21
60.00000
  0
LINE
  8
Bezugspunkte
 62
   1
 39
0.100
  6
CONTINUOUS
 10
348.00000
 20
57.95000
 30
 0
 11
348.00000
 21
62.05000
  0
LINE
  8
Bezugspunkte
 62
   1
 39
0.100
  6
CONTINUOUS
 10
357.95000
 20
60.00000
 30
 0
 11
362.05000
 21
60.00000
  0
LINE
  8
Bezugspunkte
 62
   1
 39
0.100
  6
CONTINUOUS
 10
360.00000
 20
57.95000
 30
 0
 11
360.00000
 21
62.05000
  0
LINE
  8
Bezugspunkte
 62
   1
 39
0.100
  6
CONTINUOUS
 10
369.95000
 20
60.00000
 30
 0
 11
374.05000
 21
60.00000
  0
LINE
  8
Bezugspunkte
 62
   1
 39
0.100
  6
CONTINUOUS
 10
372.00000
 20
57.95000
 30
 0
 11
372.00000
 21
62.05000
  0
LINE
  8
Bezugspunkte
 62
   1
 39
0.100
  6
CONTINUOUS
 10
381.95000
 20
60.00000
 30
 0
 11
386.05000
 21
60.00000
  0
LINE
  8
Bezugspunkte
 62
   1
 39
0.100
  6
CONTINUOUS
 10
384.00000
 20
57.95000
 30
 0
 11
384.00000
 21
62.05000
  0
LINE
  8
Bezugspunkte
 62
   1
 39
0.100
  6
CONTINUOUS
 10
297.95000
 20
30.00000
 30
 0
 11
302.05000
 21
30.00000
  0
LINE
  8
Bezugspunkte
 62
   1
 39
0.100
  6
CONTINUOUS
 10
300.00000
 20
27.95000
 30
 0
 11
300.00000
 21
32.05000
  0
LINE
  8
Bezugspunkte
 62
   1
 39
0.100
  6
CONTINUOUS
 10
309.95000
 20
30.00000
 30
 0
 11
314.05000
 21
30.00000
  0
LINE
  8
Bezugspunkte
 62
   1
 39
0.100
  6
CONTINUOUS
 10
312.00000
 20
27.95000
 30
 0
 11
312.00000
 21
32.05000
  0
LINE
  8
Bezugspunkte
 62
   1
 39
0.100
  6
CONTINUOUS
 10
321.95000
 20
30.00000
 30
 0
 11
326.05000
 21
30.00000
  0
LINE
  8
Bezugspunkte
 62
   1
 39
0.100
  6
CONTINUOUS
 10
324.00000
 20
27.95000
 30
 0
 11
324.00000
 21
32.05000
  0
LINE
  8
Bezugspunkte
 62
   1
 39
0.100
  6
CONTINUOUS
 10
333.95000
 20
30.00000
 30
 0
 11
338.05000
 21
30.00000
  0
LINE
  8
Bezugspunkte
 62
   1
 39
0.100
  6
CONTINUOUS
 10
336.00000
 20
27.95000
 30
 0
 11
336.00000
 21
32.05000
  0
LINE
  8
Bezugspunkte
 62
   1
 39
0.100
  6
CONTINUOUS
 10
345.95000
 20
30.00000
 30
 0
 11
350.05000
 21
30.00000
  0
LINE
  8
Bezugspunkte
 62
   1
 39
0.100
  6
CONTINUOUS
 10
348.00000
 20
27.95000
 30
 0
 11
348.00000
 21
32.05000
  0
LINE
  8
Bezugspunkte
 62
   1
 39
0.100
  6
CONTINUOUS
 10
357.95000
 20
30.00000
 30
 0
 11
362.05000
 21
30.00000
  0
LINE
  8
Bezugspunkte
 62
   1
 39
0.100
  6
CONTINUOUS
 10
360.00000
 20
27.95000
 30
 0
 11
360.00000
 21
32.05000
  0
LINE
  8
Bezugspunkte
 62
   1
 39
0.100
  6
CONTINUOUS
 10
369.95000
 20
30.00000
 30
 0
 11
374.05000
 21
30.00000
  0
LINE
  8
Bezugspunkte
 62
   1
 39
0.100
  6
CONTINUOUS
 10
372.00000
 20
27.95000
 30
 0
 11
372.00000
 21
32.05000
  0
LINE
  8
Bezugspunkte
 62
   1
 39
0.100
  6
CONTINUOUS
 10
381.95000
 20
30.00000
 30
 0
 11
386.05000
 21
30.00000
  0
LINE
  8
Bezugspunkte
 62
   1
 39
0.100
  6
CONTINUOUS
 10
384.00000
 20
27.95000
 30
 0
 11
384.00000
 21
32.05000
  0
LINE
  8
Bezugspunkte
 62
   1
 39
0.100
  6
CONTINUOUS
 10
42.95000
 20
52.50000
 30
 0
 11
47.05000
 21
52.50000
  0
LINE
  8
Bezugspunkte
 62
   1
 39
0.100
  6
CONTINUOUS
 10
45.00000
 20
50.45000
 30
 0
 11
45.00000
 21
54.55000
  0
ENDSEC
  0
EOF
